La bamba

LA BAMBA - Artist: Ritchie Valens, 1958

 

Intro:

E |---------------------------- ||----------------------------|

B |---------------------------- ||----------------------------|

G |----------------0-----2--0-- ||----------------------------|

D |-------------2----3---------||-------0---3--3--2---0------|

A |----0--2--3-----------------||----2-----------------------|

E |-3--------------------------||-3--------------------------|

 

 

E |----------------------------|

B |----------------------------|

G |----------0-----2--0--------|

D |-------2-----3--------------|

A |---3------------------------|

E |----------------------------|

 

 

C F G C

Para bailar la bamba, Para bailar la bamba,

F G C F G C F

se necesita un poca de gracia, una poca de gracia para mi para

 

G C F G C F G

ti y ariba y ariba, ay ariba ariba por ti se re

 

C F G

por ti se re, por ti se re

 

C F G C

yo no soy marinero, yo no soy marinero

 

F G C F G

soy capitan, soy capitan, soy capitan

 

C F G

bamba, bamba

 

C F G

bamba, bamba

 

C F G

bamba, bamba

 

C F G

bamba